ConnexionConnexionInscription
B E A D G
132 connectés Aller à Sweepyto Guitare

Muse - Plug In Baby

Publié par le
30/03/2006
37103 vues
Débutant 4
Vitesse NormaleNormal speed Vitesse RalentieSlow down speed
Couplet :
G-------------------------------------------------------|
D--------------------------------4-------4-----4-------4|
A----5--------5----5--------5----------4-------------4--|
D-0-----0-0-7---0-----0-0-7---4----4-4-----4-----4-4----|

G-----------------------------------|
D------5--------5-----5---------5---|
A-------------5--------------5------|
D--5------5-5------5-----5-5--------|

(version 5 cordes) :
G--------------------------------------------------------|
D--------------------------------4--------4----4--------4|
A----5--------5----5--------5-----------4-------------4--|
E-----------5-------------5---2-----2-2-----2-----2-2----|
B-3-----3-3-----3-----3-3--------------------------------|

G--------------------------------|
D-----5--------5----5--------5---|
A------------5-------------5-----|
E--3-----3-3-----3-----3-3-------|
B--------------------------------|
Là, on a besoin du Re grave. Moi, je la joue sur 4 cordes (parce que j'ai pas de 5 cordes), en drop D. J'ai mis les deux tabs, du coup. Le probleme de ce morceau est qu'il repose sur une alternance non paire des motifs. Il y a trois motifs, sur des cycles de mesures paires, donc 4, 8 mesures, par ex... Donc il est préférable d'avoir bien le morceau en tete pour savoir ou tombe ces trois motifs. Notez par ex la reprise apres le refrain, en fa# (4 sur le re grave), et non en re (re grave a vide).

1 Commentaire

1 2 3 4 5
0 notes
#1
06/02/2013 11:39:23
Merci, je pensais que les morceaux de muses étaient plus difficile que ça à la basse mais enfaite ça va :)
0
0

En Live

Pitoune vient tout juste de rejoindre la communauté Slappyto. Bienvenue ! il y a 1 heure
Papy.vtt vient tout juste de rejoindre la communauté Slappyto. Bienvenue ! il y a 15 heures
Gaiol et escaliyo ont commenté le topic [Où est passé Broz-Reggae-Tabs ?????] de escaliyo il y a 16 heures
Yaip et grobass ont commenté le topic [Association de Mots] de Claypool-Fish! il y a 17 heures
Vikpil vient tout juste de rejoindre la communauté Slappyto. Bienvenue ! il y a 1 jour
Valfaya vient tout juste de rejoindre la communauté Slappyto. Bienvenue ! il y a 1 jour