ConnexionConnexionInscription
B E A D G
135 connectés Aller à Sweepyto Guitare

Jamiroquai - Cosmic girl

Publié par le
30/03/2006
63602 vues
Avancé 2
Vitesse NormaleNormal speed Vitesse RalentieSlow down speed
G-------------------|------------|---------------------|
D----------2--X-2-3-|-4----------|------------2--X-2-3-|
A--------2----------|----3-X-2---|----------2----------|
E--0--3-------------|------------|--X-X-0-3------------|


G---------------------|-------------------|------------|
D-4-------------------|----------2--X-2-3-|-4----------|
A----3-X-2------------|--------2----------|----3-X-2---|
E-----------0-X--3-2--|--0--3-------------|------------|


G---------------------|------------|-------------------|
D------------2--X-2-3-|-4----------|-----------4-4-----|
A----------2----------|----3-X-2---|-------------------|
E--X-X-0-3------------|------------|--4-4-X-2------2-X-|


G-------------------|---4------6------|-----------------|
D-------------------|-----------------|-----------------|
A-------------------|-2---X-4-----4-X-|-4-X-4-X-4-X-4-X-|
E-2-X-2-X-2-2-0-2-X-|-----------------|-----------------|


G-------------------|-------------------|
D-----------4-4-----|-------------------|
A-------------------|-------------------|
E--4-4-X-2------2-X-|-2-X-2-X-2-2-0-2-X-|


G----4-----------6------|--------3----4----6--|
D-----------------------|---------------------|
A-2-----X-2-/-4-----4-X-|-4-X-1----2----4-----|
E-----------------------|---------------------|

Ca se complique un peu, restez bien en place avec la batterie, en particulier sur le refrain ou vous devez appuyer les premiers temps en intercallant une note "normale" et une note morte vous verrez qu'une fois maîtrisé, cela fait tourner le morceau sans problème et cela vous aide à rester dans le rythme. Cette façon d'utiliser les notes mortes fait partie intégrante du style de Stuart Zender, à vous de vous en inspirer lors de compos ;-)

Lets get into trickier things, stay right on the beat with the drum, particularly during the chorus where youll have to accentuate the first steps, alternating normal and ghost notes. Once youll handle that, youll see that it helps to keep the rhythm and the track will smoothly flow from itself. This way of using ghost notes belongs to Stuart Zenders own style? your turn now to apply it to your own stuff!

1 Commentaire

1 2 3 4 5
1 note
Notes pour Cosmic girl - Jamiroquai - Cours de basse vidéo | Slappyto : 5/5 sur 1 note
#1
08/02/2011 09:20:41
bonne idée cette tab, j'adore la chanson, bien jouée bien groové dommage la vidéo pixelisée , ça serait bien une ligne sautée entre chaque partie de tab...
0
0

En Live

NIKOLAB a voté pour le message de Grumbll il y a 4 heures
Ignatius vient tout juste de rejoindre la communauté Slappyto. Bienvenue ! il y a 8 heures
Franchement et nofretnostress ont commenté le topic [A la recherche d'une basse bien précise..] de Franchement il y a 2 jours
Wario a commenté le topic [A la recherche d'une basse bien précise..] de Franchement il y a 2 jours
Bronsted et Franchement ont commenté le topic [Drop C et Warwick Streamer Stage 1] de Franchement il y a 2 jours
Iscou vient tout juste de rejoindre la communauté Slappyto. Bienvenue ! il y a 5 jours
Avamak vient tout juste de rejoindre la communauté Slappyto. Bienvenue ! il y a 6 jours
Fissur79 vient tout juste de rejoindre la communauté Slappyto. Bienvenue ! il y a 1 semaine