ConnexionConnexionInscription
B E A D G
132 connectés Aller à Sweepyto Guitare

Muse - Citizen Erased

Publié par le
30/03/2006
24504 vues
Débutant 4
Vitesse NormaleNormal speed Vitesse RalentieSlow down speed
G-------------------------------------------------------|
D-------------------------------------------------------|
A----0---0---12---0---12---12---0---12---12---0---12----|
E-------------------------------------------------------|

G-------------------------------------------------------|
D-------------------------------------------------------|
A----0---0---10---0---10---10---0---10---10---0---10----|
E-------------------------------------------------------|

G-------------------------------------------------------|
D-------------------------------------------------------|
A-------0---0---8---0---8---8---0---8---8---0---8-------|
E-------------------------------------------------------|

G-------------------------------------------------------|
D-------------------------------------------------------|
A-------0---0---7---0---7---7---0---7---7---0---7-------|
E-------------------------------------------------------|
Un plan pas très dur... Pas besoin de rapidité ici, juste une bonne mise en place avec la batterie et la guitare. Chris rajoute ici un octaver, donc si vous en avez un...

0 Commentaires : réagissez !

1 2 3 4 5
3 notes
Notes pour Citizen Erased - Muse - Cours de basse vidéo | Slappyto : 4/5 sur 3 notes
Aucun commentaire !

En Live

Pitoune vient tout juste de rejoindre la communauté Slappyto. Bienvenue ! il y a 4 minutes
Papy.vtt vient tout juste de rejoindre la communauté Slappyto. Bienvenue ! il y a 14 heures
Gaiol et escaliyo ont commenté le topic [Où est passé Broz-Reggae-Tabs ?????] de escaliyo il y a 15 heures
Yaip et grobass ont commenté le topic [Association de Mots] de Claypool-Fish! il y a 16 heures
Vikpil vient tout juste de rejoindre la communauté Slappyto. Bienvenue ! il y a 23 heures
Valfaya vient tout juste de rejoindre la communauté Slappyto. Bienvenue ! il y a 1 jour