ConnexionConnexionInscription
B E A D G
147 connectés Aller à Sweepyto Guitare

Muse - Uno

Publié par le
30/03/2006
20412 vues
Débutant 4
Vitesse NormaleNormal speed Vitesse RalentieSlow down speed
Motif 1:
G---------------------------------|
D---------------------------------|
A----------7---------------7------|
E-0-0---7-----7---0-0---7------7--|

G-----------------------------------|
D-----------------------------------|
A----------7----------------7-------|
E-5-5---8------8---5-5---8-----8----|

G---------------------------------|
D----------4----------------------|
A-------5-----5--------------7----|
E--7-7-------------5-5----8----8--|

G---------------------------------|
D---------------------------------|
A----------7---------------7------|
E-0-0---7-----7---0-0---7------7--|

Le meme, à l'octave :
G------9----------9------------9-------------9------|
D----9---9------9---9--7-7--10---10--7-7--10---10---|
A--7-------7-7--------------------------------------|
E---------------------------------------------------|

G-----------11-------------9-----------9-----------9----|
D---9-9--12----12--7-7--10----10-----9---9-------9----9-|
A--------------------------------7-7--------7-7---------|
E-------------------------------------------------------|
ATTENTION !!! Sur le cd, il est accordé tres légerement plus aigu, donc si vous essayez de jouer dessus, ca ne rend pas tres bien. A part ca, pas de difficultés.

4 Commentaires

1 2 3 4 5
0 notes
#4
08/02/2013 15:17:56
J'adore le son de ta basse, ma basse ne fait pas du tout le même son , je me demande si elle est bien accordé ou si c'est dû à ma basse    
0
0
#3
08/02/2013 15:17:42
J'adore le son de ta basse, ma basse ne fait pas du tout le même son , je me demande si elle est bien accordé ou si c'est dû à ma basse    
0
0
#2
08/02/2013 15:17:37
J'adore le son de ta basse, ma basse ne fait pas du tout le même son , je me demande si elle est bien accordé ou si c'est dû à ma basse    
0
0
#1
05/02/2013 13:12:03
Merci
0
0

En Live

Pitoune vient tout juste de rejoindre la communauté Slappyto. Bienvenue ! il y a 55 minutes
Papy.vtt vient tout juste de rejoindre la communauté Slappyto. Bienvenue ! il y a 15 heures
Gaiol et escaliyo ont commenté le topic [Où est passé Broz-Reggae-Tabs ?????] de escaliyo il y a 16 heures
Yaip et grobass ont commenté le topic [Association de Mots] de Claypool-Fish! il y a 17 heures
Vikpil vient tout juste de rejoindre la communauté Slappyto. Bienvenue ! il y a 1 jour
Valfaya vient tout juste de rejoindre la communauté Slappyto. Bienvenue ! il y a 1 jour