ConnexionConnexionInscription
B E A D G
153 connectés Aller à Sweepyto Guitare

Rancid - Maxwell murder

Publié par le
31/03/2006
16334 vues
Moyen 3
Vitesse NormaleNormal speed Vitesse RalentieSlow down speed
G-------------------------------------------------------|
D-------------------------------------------------------|
A--0-3-4-5---3-----0-3-4-5---3-------0-3-4--------------|
E--------------3---------------3------------------------|

G-------------------------------------------------------|
D------------------------2-3-4-5-3-2--------------------|
A--5-555555-5-555555---3-------------3---5-555555-------|
E-------------------------------------------------------|

G-------------------------------------------------------|
D-------------------------------------------------------|
A--5-555555---3-2-0-2-----2-3-5-------------------------|
E---------------------3---------------------------------|

G-------------------------------------------------------|
D----------------7-5-4-----4-5-7------------------------|
A--87-87-87-87---------7-5---------87-87-87-87----------|
E-------------------------------------------------------|

G-------------------------------------------------------|
D--7-5-4--------------------------7-5-4-----------------|
A--------5-3-2-0----87-87-87-87---------7-5-------------|
E-------------------------------------------------------|

G-------------------------------------------------------|
D-------------------------------------------------------|
A--5555-------5-55555--------------------------------5--|
E-------5--------------5-55555---1-11111---5-55555------|
Voilà l'ensemble couplet / refain du morceau. Un petit conseil, entrainez vous bien avec un métronome, parceque il faut reussir à la fois à tenir le rythme (assez soutenu quand même), et à respecter les petites pauses par-ci par-là...

0 Commentaires : réagissez !

1 2 3 4 5
0 notes
Aucun commentaire !

En Live

Skydrover a commenté le topic [30 W tout lampes, suffisant ?] de skydrover il y a 28 minutes
Golmout80 vient tout juste de rejoindre la communauté Slappyto. Bienvenue ! il y a 11 heures
Skydrover a commenté le topic [30 W tout lampes, suffisant ?] de skydrover il y a 12 heures
Skydrover a commenté le topic [30 W tout lampes, suffisant ?] de skydrover il y a 13 heures