ConnexionConnexionInscription
B E A D G
153 connectés Aller à Sweepyto Guitare

Rancid - Journey to the end

Publié par le
31/03/2006
77102 vues
Moyen 3
Vitesse NormaleNormal speed Vitesse RalentieSlow down speed
le sens des coups de médiator n'est pas
très important ici...


G----------------4---4---------6-9-6--------------------|
D----2-3-4-5---5---5---5-5-6-7--------7-5-3-------------|
A--3----------------------------------------------------|
E-------------------------------------------------------|


G-------------------------------------------------------|
D------------2-3-4-5---5-5-5-5-5-5-4--------------------|
A----0-1-2-3--------------------------------------------|
E--1----------------------------------------------------|

et à partir de là, l'une des 4 fins suivantes:

G-------------------------------------------------------|
D--3-------------2-0------------------------------------|
A------0-1-3---3-----3-0--------------------------------|
E----1-------------------3-0----------------------------|


G-------------------------------------------------------|
D--3333--1111--0000-------------------------------------|
A--------------------3----------------------------------|
E-------------------------------------------------------|


G-----------------------0-------------------------------|
D--3--------------2-0-2---2-0---------------------------|
A------0-1-3---3----------------------------------------|
E----1--------------------------------------------------|


G-------------0-----------------------------------------|
D--3--33--1-3---3-1---0---------------------------------|
A-----------------------1-3-----------------------------|
E-------------------------------------------------------|
Journey to the end of the east bay - And out come the wolves (1995) Ce morceau de présente pas de grandes difficultés (sauf quelques déplacements rapides), mais fait toujours plaisir à jouer ... En fait la plus grande difficulté est peut être de mémoriser l'ordre des différentes fins :) Donc appliquez vous à les connaitre séparément, puis ensuite il suffit de bien connaître le morceau pour que ça tourne bien...

0 Commentaires : réagissez !

1 2 3 4 5
4 notes
Notes pour Journey to the end - Rancid - Cours de basse vidéo | Slappyto : 2/5 sur 4 notes
Aucun commentaire !

En Live

Serge blessing vient tout juste de rejoindre la communauté Slappyto. Bienvenue ! il y a 8 heures
Vin'z du 50 vient tout juste de rejoindre la communauté Slappyto. Bienvenue ! il y a 23 heures
Gozo et koches ont commenté le topic [vds WARWICK Corvette std MIG 600€] de gozo il y a 1 jour
Off67 vient tout juste de rejoindre la communauté Slappyto. Bienvenue ! il y a 1 jour
Grobass, nama kemono, popolito et Wario ont commenté le topic [La mort de Slappyto?] de kurt il y a 1 jour
Mickey738 vient tout juste de rejoindre la communauté Slappyto. Bienvenue ! il y a 2 jours
Tofe a commenté le topic [Aftershock ] de madamaris il y a 2 jours