ConnexionConnexionInscription
B E A D G
140 connectés Aller à Sweepyto Guitare

Red Hot Chili Peppers - Suck my kiss

Publié par le
02/12/2007
42247 vues
Moyen 2
Vitesse NormaleNormal speed Vitesse RalentieSlow down speed
G-------------|-------------|-------------|
D-------------|-------------|-------------|
A------1------|------1------|------1------|
E-1-3-----1-3-|-1-3-----1-3-|-1-3-----1-3-|

G--------------------------7/9-9-|
D----------3-3-3-3-5/7-7-7-------|
A--3/5-5-5-----------------------|
E--------------------------------|
Un riff surpuissant où il faut mettre la gomme : Vos cordes vont pas aimer :o( , vos oreilles oui.

A very powerful riff you gotta get a move on to. Your strings aint gonna like it...but your ears shall.

2 Commentaires

1 2 3 4 5
0 notes
#2
27/09/2014 22:57:59

Un riff de folie

0
0
#1
08/05/2011 20:57:28
Tu a des Leds sur ta mod ?
0
0

En Live

Kyhr et Cell ont commenté le topic [La mort de Slappyto?] de kurt il y a 3 jours
Kyhr, Cell et Malicia ont commenté le topic [Le Topic du Freepost 7] de Vikie il y a 2 semaines
Cell et Poppy ont voté pour le message de Poppyto il y a 1 mois
Cell a voté pour le message de MasterFailure il y a 1 mois
Cell a voté pour le message de grobass il y a 1 mois
Cell a commenté le topic [une chope s'il vous plait !] de Adrien21 il y a 1 mois