ConnexionConnexionInscription
B E A D G
218 connectés Aller à Sweepyto Guitare

Red Hot Chili Peppers - One big Mob - Couplet

Publié par le
02/12/2007
20543 vues
Moyen 3
Vitesse NormaleNormal speed Vitesse RalentieSlow down speed
G---------------------|---------------------|
D-----4----4-2-3-4-4--|-----4----4----------|
A---------------------|------------0-2-3-4--|
E-0-2----2------------|-0-2----2------------|

G---------------------|---------------------|
D-----4----4-2-3-4-4--|-----4----4-----2----|
A---------------------|------------2-4------|
E-0-2----2------------|-0-2----2------------|
Décidément, j'adore ces plans :o) Ici, faut mettre la gomme sinon ça donne pas grand chose et puis si vous avez une petite pédale d'effet de wha wha ou une Bass Balls, ba enclenchez là : ça dépote !!! "One big mob, Oh Yeah oh Yeah" !!!!

1 Commentaire

1 2 3 4 5
3 notes
Notes pour One big Mob - Couplet - Red Hot Chili Peppers - Cours de basse vidéo | Slappyto : 5/5 sur 3 notes
#1
05/03/2011 21:46:54

Plan sympa qui fait bien progresser mine de rien si on s'applique a le jouer proprement.

Il défoule bien  

A voir !

0
0

En Live

Kyhr et Cell ont commenté le topic [La mort de Slappyto?] de kurt il y a 3 jours
Kyhr, Cell et Malicia ont commenté le topic [Le Topic du Freepost 7] de Vikie il y a 2 semaines
Cell et Poppy ont voté pour le message de Poppyto il y a 1 mois
Cell a voté pour le message de MasterFailure il y a 1 mois
Cell a voté pour le message de grobass il y a 1 mois
Cell a commenté le topic [une chope s'il vous plait !] de Adrien21 il y a 1 mois