ConnexionConnexionInscription
B E A D G
206 connectés Aller à Sweepyto Guitare

Red Hot Chili Peppers - Easily

Publié par le
02/12/2007
33146 vues
Moyen 2
Vitesse NormaleNormal speed Vitesse RalentieSlow down speed
G--------------|------------5-7-|
D------------5-|----------7-----|
A-0--------7---|-5--------------|
E--------------|----------------|

G---------------|----------------------|
D-3----------5--|-7---7-7------5-7-5---|
A---------------|----------5H7-------7-|
E---------------|----------------------|
Un plan assez mélodique mais il faut quand même bouffer ses cordes grrrrrrrrrrrrrr héhé

Quite a melodic plan but still going to knacker your strings mwahahahha =D

1 Commentaire

1 2 3 4 5
4 notes
Notes pour Easily - Red Hot Chili Peppers - Cours de basse vidéo | Slappyto : 5/5 sur 4 notes
#1
25/08/2012 19:02:22

Aie! Ca pique les doigts  

0
0

En Live

Kyhr et Cell ont commenté le topic [La mort de Slappyto?] de kurt il y a 3 jours
Kyhr, Cell et Malicia ont commenté le topic [Le Topic du Freepost 7] de Vikie il y a 2 semaines
Cell et Poppy ont voté pour le message de Poppyto il y a 1 mois
Cell a voté pour le message de MasterFailure il y a 1 mois
Cell a voté pour le message de grobass il y a 1 mois
Cell a commenté le topic [une chope s'il vous plait !] de Adrien21 il y a 1 mois