ConnexionConnexionInscription
B E A D G
135 connectés Aller à Sweepyto Guitare

Red Hot Chili Peppers - Savior

Publié par le
02/12/2007
26636 vues
Moyen 2
Vitesse NormaleNormal speed Vitesse RalentieSlow down speed
G-----19--------19---|-----19--------19--19-|
D--------------------|----------------------|
A-17----17--15----15-|----------------------|
E--------------------|-15----15-15-----15---|

G-----19--------19---|---19--19-------------|
D--------------------|----------------------|
A-17----17--15----15-|----------------------|
E--------------------|-15--15---18-18-18----|
Un petit plan tout en finesse assez rarissime ce qui est d'autant plus savoureux. Le jeu, assis, ne pose pas trop de problèmes...une fois debout ça se corse : votre petit doigt va souffrir :oP

A subtle little plan, quite rare too which makes it even better. When youre sitting, you can play it with no big trouble. But standing up...Im afraid your little finger will have to go through some pain ! =)

1 Commentaire

1 2 3 4 5
3 notes
Notes pour Savior - Red Hot Chili Peppers - Cours de basse vidéo | Slappyto : 4/5 sur 3 notes
#1
22/03/2013 17:13:39
Même assis ça fait mal au petit doigt lol 
0
+1

En Live

Kyhr et Cell ont commenté le topic [La mort de Slappyto?] de kurt il y a 3 jours
Kyhr, Cell et Malicia ont commenté le topic [Le Topic du Freepost 7] de Vikie il y a 2 semaines
Cell et Poppy ont voté pour le message de Poppyto il y a 1 mois
Cell a voté pour le message de MasterFailure il y a 1 mois
Cell a voté pour le message de grobass il y a 1 mois
Cell a commenté le topic [une chope s'il vous plait !] de Adrien21 il y a 1 mois