ConnexionConnexionInscription
B E A D G
192 connectés Aller à Sweepyto Guitare

Red Hot Chili Peppers - Transcending

Publié par le
02/12/2007
20465 vues
Moyen 3
Vitesse NormaleNormal speed Vitesse RalentieSlow down speed
G-------9-------------------------|
D--------------7-7-9-9-9b9B-7-----|
A-9-9-9----9-9----------------9-7-|
E---------------------------------|

G-------9-------------------------|
D--------------7-7-9-9b9B9B9B9B-7-|
A-9-9-9----9-9--------------------|
E---------------------------------|

G-------9-------------------------|
D--------------7-7-9-9-9b9B-7-----|
A-9-9-9----9-9----------------9-7-|
E---------------------------------|

G-------9-------------------------|
D---------------------------------|
A-9-9-9----9-9-9-9---------7-7-7--|
E------------------7-7-7-7--------|
Bon alors ça, c'est pas facile à interpréter...Jouez en boucle le plan et vous verrez que vous vous emmêlerez les doigts de la main droite ( si tout se passe bien ).Avec de l'entraînement ça passera.

0 Commentaires : réagissez !

1 2 3 4 5
1 note
Notes pour Transcending - Red Hot Chili Peppers - Cours de basse vidéo | Slappyto : 5/5 sur 1 note
Aucun commentaire !

En Live

Gomazio56 vient tout juste de rejoindre la communauté Slappyto. Bienvenue ! il y a 2 jours
Wario a commenté le topic [videothèque des sons] de mr gone il y a 4 jours
Lwyfs vient tout juste de rejoindre la communauté Slappyto. Bienvenue ! il y a 5 jours
Remitobass vient tout juste de rejoindre la communauté Slappyto. Bienvenue ! il y a 1 semaine
Papihendrix vient tout juste de rejoindre la communauté Slappyto. Bienvenue ! il y a 1 semaine
Services vient tout juste de rejoindre la communauté Slappyto. Bienvenue ! il y a 2 semaines
Haga187 vient tout juste de rejoindre la communauté Slappyto. Bienvenue ! il y a 2 semaines