ConnexionConnexionInscription
B E A D G
121 connectés Aller à Sweepyto Guitare

Besoin d'aide pour Tablature de bassea trouver a l'oreille.

#1
10/03/2008 21:10:24
Bonsoir !

Alors voila , je joue de la basse en groupe depuis peu et commence a apprendre mes gammes , jusque la tout va bien Mais j'ai une envie soudaine de jouer cette chanson avec mon groupe :

http://www.deezer.com/track/252070

( En plus pour l'occaz j'ai peut etre trouver une chanteuse et un pianiste en colaboration avec d'autre musiciens  )

Sauf que , en tant que débutant... j'arrive pas trop a trouver a l'oreille la tablature de ce morceau.
Donc je voulez savoir si il n'y aurez pas quelque talentueux musiciens qui voudré me donné un coup de main pour y parvenir ??


Alex.


PS : j'ai rien trouver sur le net comme tablature pour ce morceau...

0
0
#2
10/03/2008 22:19:35
Beh c'est pas bien dur à repiquer pourtant!
0
0
#3
10/03/2008 22:28:16
Oui mais il a précisé qu'il débutait  (Désolé pas ma basse sous la main pour t'aider )
0
0
#4
10/03/2008 22:35:57
How , pas grave NeKro-TiX.. J'espere que il y aura quand meme quelques personne pour m'aider a repiquer ce truc pas bien dur :D
0
0
#5
10/03/2008 23:00:36
Je m'y met dès que j'ai le temps
0
0
#6
10/03/2008 23:19:58
 héhé à vue de nez comme ça jdirais le bon vieux 2 5 1 genre mi la ré sol avec à chaque fois les notes approchées avec le demi ton au dessus ou au dessous... Donc en gros tu choppes le "mi" 7eme case sur la 2eme corde, puis tu vas sur le "la" en passant par le si bémol juste à coté, puis Ré en dessous du "la" (5eme case 2eme corde) et puis le sol pareil 3e case de la première corde... Et le reste c juste 2 accords avec un ton entre les 2... et ça doit pas être loin du mi...
0
0
#7
11/03/2008 12:58:05
Merci ! je commence a y voir un peu , mais c'est toujours super flou !

Sinon c'est bien un truc dans le genre ?


G|----------------|----------------|----------------|----------------|
D|----------------|----------------|----------------|----------------|
A|---7----------6-|---5------------|----------------|----------------|
E|-------6--5-----|--------4---3---|----------------|----------------|


0
0
#8
11/03/2008 13:39:04
  Si l'adresse est bonne et que c'est le bon titre, voici ton intro ...

THE DANDY COWBOYS
SOKO

INTRO

G|----------------|----------------|----------------|----------------|
D|----------------|----------------|----------------|--------5-gliss--|
A|----------------|----------------|----------------|----------------|
E|----------------|----------------|----------------|----------------|

G|----------------|----------------|----------------|----------------|
D|----------------|--------2-------|--------3-------|----------------|
A|-------3--------|----------------|----------------|----------------|
E|----------------|----------------|----------------|-------1--------|

G|----------------|----------------|----------------|----------------|
D|----------------|--------2-------|--------3-------|-------6--------|
A|--------3-------|----------------|----------------|----------------|
E|----------------|----------------|----------------|----------------|

G|----------------|----------------|----------------|----------------|
D|----------------|----------------|----------------|----------------|
A|--------3-------|--------4-------|--------5-------|----------------|
E|----------------|----------------|----------------|--------3-------|


but I still want you ...


G|----------------|----------------|----------------|----------------|
D|----------------|----------------|----------------|----------------|
A|--------3-----3-|----------------|--------5--gliss|--------10------|
E|----------------|-------5------5-|----------------|----------------|

because ...

G|----------------|----------------|----------------|----------------|
D|----------------|----------------|----------------|----------------|
A|-------3--------|----------------|--------5-------|------------2---|
E|----------------|--------5-------|----------------|----x--3--5-----|


0
0
#9
11/03/2008 13:59:50
Merci beaucoup !! Ca me fait deja l'intro en moin :D

0
0
#10
11/03/2008 15:03:49
 c'est ton jour de chance ...





THE DANDY COWBOYS
SOKO (suite )


G|----------------|----------------|----------------|----------------|
D|----------------|----------------|----------------|----------------|
A|-------3--------|----------------|--------5-------|------------2---|
E|----------------|--------5-------|----------------|---x-3--5-------|




G|----------------|----------------|----------------|----------------|
D|----------------|----------------|----------------|----------------|
A|----3-----------|----------------|-----5----------|-------------2--| ( x 3 )
E|------3---------|-----5--0--5----|--------5-------|-3----3---5-----|

you with your hat me with my boots ... we are , we are, the dandy cowboys ...


Couplet ( à la pompe )

G|----------------|----------------|----------------|----------------|
D|----------------|-2--2--------2--|--3---3---------|--3---3--5-gliss|
A|----3----3----3-|--2---------2---|----3----3------|----3----------|
E|------3------3--|----------------|----------------|----------------|

I read today , in a magazine ...


G|----------------|----------------|----------------|-----------------|
D|-----------0--1-|--2---2-------2-|---3---3--------|---3-----3-3-3--|
A|----3---3-------|----2-------2---|-----3---3-gliss|------3-----3----|
E|------3---------|----------------|----------------|-----------------|

I wear my magic smile just for you ...


G|----------------|----------------|----------------|-----------------|
D|----------------|----------------|----------------|------------8----|
A|----3---3-----3-|-4---4-4gliss7-4|---5---5----7-8-|-6---6----6-----|
E|------3-----3---|---4------------|-----5----------|---6-----6------|

I am so brave I don't fear anything ...

G|----------------|----------------|-----------------|------------------|
D|----------------|----------------|-----------------|-5-5gliss7--------|
A|--3---3---------|-5--5---------2-|--3---3---------|---------------2-|
E|----3---5--0----|------3---3-5---|-----3----5--0--|----------3-3-5--|

                                                    ... to daddy              .. because  etc ...

0
0
#11
11/03/2008 18:38:55

Hooow.

Merci et surtout Bravo !
Ca colle parfaitement a la version du morceau.. !

Encor merci a toi Sam et bonne soirée a tous

0
0
#12
11/03/2008 19:11:07
"""" Ca colle parfaitement a la version du morceau.. !"""""


je veux oui !
t'as vu a qui t'as affaire

meme le texte , enfin, presque ...




0
0

En Live

Lewis vient tout juste de rejoindre la communauté Slappyto. Bienvenue ! il y a 3 heures
Wario a commenté le topic [videothèque des sons] de mr gone il y a 1 jour
Darkkimhari et LouisBasse ont commenté le topic [Reprendre la basse après des années, quel achat ?] de Kazhamania il y a 1 jour
Rif-Raf et RomBass91 ont commenté le topic [Vend Carvin USA 6 Cordes] de Rif-Raf il y a 2 jours
BirdBlack vient tout juste de rejoindre la communauté Slappyto. Bienvenue ! il y a 2 jours
Bassman59 a commenté le topic [Bi-amplification Basse] de mrcroa il y a 3 jours
Nexis vient tout juste de rejoindre la communauté Slappyto. Bienvenue ! il y a 3 jours
Lowje a commenté le topic [besoin de renseignements zoom b3] de domds11 il y a 5 jours
Didoug vient tout juste de rejoindre la communauté Slappyto. Bienvenue ! il y a 6 jours