ConnexionConnexionInscription
B E A D G
114 connectés Aller à Sweepyto Guitare

Tab solo slap basse 5 corde a 4 corde

#1
18/03/2008 15:29:03
 Bonjour
Alors voila mon probléme est que je suis censé jouer Blöhm de Pleymo avec mon groupe je connais toute la  musique par coeur aucun probléme (je jou sur une 4 cordes) j'ai reussi a placer le morceau sur ma 4 cordes ya juste le solo de slap que je n'arrive pas du tout a faire passer sur ma 4 cordes :s

---------------------------------|-------------------------------------|--12--14--16h18p16h18-16/-------|
---------------------------------|--14p12------------------12-14-16b--|--------------------------------|
----14----15----17----15----14--|--------12-x-14--14--14-------------|--------------------------------|
---------------------------------|-------------------------------------|--------------------------------|
--x-----x-----x-----x-----x------|-------------------------------------|--------------------------------|


                                                                                                        
--11--9--7--5----------2b--
--9---7--5--3--2-5-2-5-----
----------------------------
----------------------------
----------------------------

Voila la tablature en 5 cordes si une ame charitable acceptait de m'aider je lui en serai incroyablement reconnaissant :)
0
0
#2
18/03/2008 15:34:25
 Ben tu joues pareil et les tapés bloqués sur la corde de si tu les jours sur la corde de mi.

A part ça, bosse, je vois pas d'autre conseil pour passer ce plan.
0
0
#3
18/03/2008 15:39:23
ok ok merci
0
0
#4
18/03/2008 19:45:48
 Ouais, les tapés sur le MI sont des notes mortes, donc que ce soit sur un SI ou un MI, ca doit pas fort s'entendre la différence...

Allais hop', Slap 'n' pop
0
0
#5
19/03/2008 00:10:48
 Si c'est une question de confort qui te dérange, rien ne t'empêche de transposer les notes jouées (je veux dire celles qui sont pas ghosted) sur la corde de sol et de ré, ainsi tu as toujours un écart plutôt raisonnable au lieu d'avoir 2mm de marge
0
0
#6
19/03/2008 01:33:20
Ouai c'était surtout sa le probléme je vais essayer comme sa sa peut pas étre plus mal thx 
0
0

En Live

Jammershopers vient tout juste de rejoindre la communauté Slappyto. Bienvenue ! il y a 52 minutes
Sydi vient tout juste de rejoindre la communauté Slappyto. Bienvenue ! il y a 7 heures
PipouDevos vient tout juste de rejoindre la communauté Slappyto. Bienvenue ! il y a 1 jour
NicholasC vient tout juste de rejoindre la communauté Slappyto. Bienvenue ! il y a 2 jours
Berni03 vient tout juste de rejoindre la communauté Slappyto. Bienvenue ! il y a 2 jours
JoeFoxBass38 vient tout juste de rejoindre la communauté Slappyto. Bienvenue ! il y a 3 jours
Saikodoll vient tout juste de rejoindre la communauté Slappyto. Bienvenue ! il y a 6 jours