ConnexionConnexionInscription
B E A D G
177 connectés Aller à Sweepyto Guitare

FFF

#1
15/09/2007 15:26:31
Salut, qlq'un aurait la partoche/tablature, un lien,  pour le morceau "le pire et le meilleur"de FFF ? Je ne comprend et entend rien !
Salutations
0
0
#2
15/09/2007 17:55:36
Ici , Maintenant je ne sais pas ce que ca vaut Au passage si quelqu'un à les tabs de "Silver Groover", "Niggalize it" ou encore "Morphee" guitare ou basse je suis preneur
0
0
#3
15/09/2007 19:18:25

un petit effort louki , c'est quand meme pas compliqué , il joue sur 2 notes pour le couplet .

 

bon allez ....... en gros , ça fait ça :

couplet :

G|----------------|----------------|----------------|----------------|
D|----------------|----------------|-6-6------------|----------------|
A|-5--------------|-5-5------------|-----5----------|-5-5------------|
E|------1--1--1---|--------1--1--1-|----------1-1-1-|--------1-1-1---|

la flemme de faire la tab pour le refrain , regarde ma video , on voit et on entend bien , c'est pas compliqué .

si tu galere vraiment , je la ferai .

reste la fin , je le ferai aussi si tu trouves pas .

tres bon morceau en tout cas ... 

http://fr.youtube.com/watch?v=k8J2uViHIh0

0
0
#4
15/09/2007 22:52:02
Cool ! Pas tres dur effectivement, son pourri sur le PC, peu de tabs fiables, ta grosse paluche devant le manche !!!!.
Alors, si, si vraiment tu as un peu de temps......... je veux bien la suite ...
Un grand grand merci pour ton aide
Salutations.
0
0
#5
15/09/2007 22:52:37
à l'arrache pour Silver groover :

E|-----------0-|-3—2—1—0—I x4


E|-----------5-|-8—7—6—5—I x2

E|-----------0-|-15-14-13—0—I-3—2—1—0—I

en fait c'est un peu ma version light

Fred
0
0
#6
16/09/2007 18:53:50
refrain G|----------------|----------------|----------------|----------------|
D|-----3----------|----------------|----------------|----------------|
A|-3/5---3-5------|----------------|----------------|----------------|
E|-----------3----|-3-3------------|-6--------------|-5-------------- G|---------------|----------------|----------------|----------------|
D|----3----------|----------------|----------------|----------------|
A|-3/5--3-5------|----------------|----------------|----------------|
E|-----------7---|----------------|-6--------------|-5--------------|

fin :  un truc dans le style .

G|-7/9-7----------|----------------|----------------|----------------|
D|--------10-9----|-8-8------------|-----3----------|----------------|
A|----------------|----------------|-3/5----3--5----|----------------|
E|----------------|----------------|--------------3-|-3--------------|


une fois que tu t'as capté les notes , t'adapte a ta sauce , en rajoutant des doubles croches ou des notes mortes , des octaves etc ... pas trop quand meme ...
0
0
#7
16/09/2007 23:08:23
Z'etes des dieux pour moi les mecs !!!! Un GRAND merci. (ça va me changer du blues !!!!!!!)
0
0

En Live

Kyhr, Groumph!, Cell et Malicia ont commenté le topic [Le Topic du Freepost 7] de Vikie il y a 6 jours
Cell et Groumph! ont commenté le topic [La mort de Slappyto?] de kurt il y a 4 semaines
Cell et Poppy ont voté pour le message de Poppyto il y a 4 semaines
Cell a voté pour le message de MasterFailure il y a 1 mois
Cell a voté pour le message de grobass il y a 1 mois
Cell a commenté le topic [une chope s'il vous plait !] de Adrien21 il y a 1 mois
Groumph! a voté pour le message de MasterFailure il y a 1 mois