ConnexionConnexionInscription
B E A D G
157 connectés Aller à Sweepyto Guitare

Muse - Cave

Publié par le
30/03/2006
19996 vues
Moyen 2
Vitesse NormaleNormal speed Vitesse RalentieSlow down speed
Intro :
G--------------|
D--------------|
A--3h555-3h555-|
E--------------|

G----------------------------------------|
D-------3-------------------3------------|
A--5555---5-----3-4----5555---5-----3-4--|
E-----------3-5-----------------3-5------|


Chant :
G----------------------------------------|
D-------3-------------------3------------|
A---5-5---5-----3-4-----5-5---5-----3-4--|
E-----------3-5-----------------3-5------|

G--------------------------------------|
D--5-5-5-5-7-7-7-7-8-8-8-8-10-10-10-10-|
A--------------------------------------|
E--------------------------------------|

G-----------------------------------|
D--5-5-5-5-3-3-3-3-2-2-2-2----------|
A--------------------------5-5-5-5--|
E-----------------------------------|
Rien de particuliers, ici. La vitesse du debut du motif, peut etre. Sinon, comme toujours, travaillez pour avoir un joli son. C'est plutot ca, l'idée de ce genre de ligne, un joli son, plutot qu'une technique de fou.

0 Commentaires : réagissez !

1 2 3 4 5
1 note
Notes pour Cave - Muse - Cours de basse vidéo | Slappyto : 3/5 sur 1 note
Aucun commentaire !

En Live

Manyak et Wario ont commenté le topic [Photos de vos basses] de lucas il y a 2 heures