ConnexionConnexionInscription
B E A D G
128 connectés Aller à Sweepyto Guitare

Muse - Citizen Erased (2)

Publié par le
30/03/2006
19132 vues
Moyen 2
Vitesse NormaleNormal speed Vitesse RalentieSlow down speed
Motif 1:
G-----------------------------------|
D-----7--7-7-77--7-----5--5-5-55--5-|
A-0-0---0---0--0---0-0---0---0--0---|
E-----------------------------------|

G-----------------------------------|
D-----3--3-3-33--3-----2--2-2-22--2-|
A-0-0---0---0--0---0-0---0---0--0---|
E-----------------------------------|


Motif 2:
G----------------------------------------|
D-33333333--------2222222277775555-------|
A---------33333333-----------------------|
E----------------------------------------|

G----------------------------------------|
D-33333333--------2222222222222222-------|
A---------33333333-----------------------|
E----------------------------------------|
Elle me semble jouée sur 5 cordes, je la transcrit ici en 4 cordes. Essayez de repiquer le rythme, et le travailler independamment de la musique. C'est pas si evident qu'il n'y parait, et c'est un tres bon travail.

1 Commentaire

1 2 3 4 5
1 note
Notes pour Citizen Erased (2) - Muse - Cours de basse vidéo | Slappyto : 3/5 sur 1 note
#1
19/01/2011 17:07:57

La tablature n'est pas correcte, celle ci est mieux :  http://www.ultimate-guitar.com/tabs/m/muse/citizen_erased_btab.htm  

 

Il n'empêche que c'est un très bon exercice.

0
0

En Live

Avamak vient tout juste de rejoindre la communauté Slappyto. Bienvenue ! il y a 1 jour
Fissur79 vient tout juste de rejoindre la communauté Slappyto. Bienvenue ! il y a 2 jours
Franchement, Wario, grobass, bassman59 et Angel ont commenté le topic [Micros.] de Franchement il y a 2 jours
Philbass02 vient tout juste de rejoindre la communauté Slappyto. Bienvenue ! il y a 5 jours
Fredbasse50 vient tout juste de rejoindre la communauté Slappyto. Bienvenue ! il y a 6 jours
Guitare66 vient tout juste de rejoindre la communauté Slappyto. Bienvenue ! il y a 1 semaine
Yous vient tout juste de rejoindre la communauté Slappyto. Bienvenue ! il y a 1 semaine