ConnexionConnexionInscription
B E A D G
158 connectés Aller à Sweepyto Guitare

Red Hot Chili Peppers - Pretty little ditty

Publié par le
02/12/2007
30181 vues
Moyen 3
Vitesse NormaleNormal speed Vitesse RalentieSlow down speed
G---17----16----14----14----14---|
D-----14----14----14----14----14-|
A-0------0-----0-----0-----0-----|
E--------------------------------|

G---17----17------19----19----|
D-----17----17------19----19--|
A-15----15------17----17------|
E-----------------------------|

G---17----16----14----14----14---|
D-----14----14----14----14----14-|
A-0------0-----0-----0-----0-----|
E--------------------------------|

G---14----15------16----16----|
D-----15----15------17----17--|
A-15----15------17----17------|
E-----------------------------|
Tout en finesse, très mélodique et de plus très connu en partie grâce à un groupe (Crazy Town) qui a samplé cet extrait :o( récemment...Bref ce plan est excellent mais il peu vous poser quelques problèmes au niveau de la main gauche, surtout pour ceux qui n'ont pas des manches gigantesques. Pour la main droite une fois que vous avez compris le truc, c'est toujours pareil :o)

0 Commentaires : réagissez !

1 2 3 4 5
0 notes
Aucun commentaire !

En Live

Remitobass vient tout juste de rejoindre la communauté Slappyto. Bienvenue ! il y a 9 heures
Papihendrix vient tout juste de rejoindre la communauté Slappyto. Bienvenue ! il y a 3 jours
Services vient tout juste de rejoindre la communauté Slappyto. Bienvenue ! il y a 1 semaine
Haga187 vient tout juste de rejoindre la communauté Slappyto. Bienvenue ! il y a 1 semaine
Aline vient tout juste de rejoindre la communauté Slappyto. Bienvenue ! il y a 1 semaine
Spa53 vient tout juste de rejoindre la communauté Slappyto. Bienvenue ! il y a 3 semaines