ConnexionConnexionInscription
B E A D G
150 connectés Aller à Sweepyto Guitare

besoin d'aide pour trouver une ligne de basse

#1
07/06/2007 22:13:36
bonsoir, j'ai besoins de votre aide car je n'arrive pas a trouver la ligne de basse de murderer de Patrice a l'oreille (j'ai une oreille deplorable). Si vous pouvez la transcrire en tablature sa me ferait bien plaisir. je vous met un lien vers radioblog http://www.radioblogclub.fr/open/96639/patrice_murderer/Murderer%20-%20Patrice
merci a vous
0
0
#2
07/06/2007 22:20:09
En effet elle n'est pas sur 911tabs...
C'est sympa, je connaissais pas ^^
Jv essayer de te faire ca vite fait mais je promet rien
0
0
#3
07/06/2007 22:21:15
merci
0
0
#4
07/06/2007 22:37:22
G|----------------|----------------|----------------|----------------|
D|----------------|----------------|----------------|----------------|
A|-----------232--|--------3---32--|--5----333-3-3--|--5----333-3-3--|
E|0--0--0-3-----3-|5--03-5-------3-|33-3--3---3-----|33-3--3---3-----|
G|----------------|----------------|----------------|----------------|
D|----------------|----------------|----------------|----------------|
A|--5----333-3-3--|--5----333-3-33-|----2------232--|--------3---32--|
E|33-3--3---3-----|33-3--3---3-----|0--0--0-3-----3-|5--03-5-------3-|
G|----------------|----------------|----------------|----------------|
D|----------------|----------------|----------------|----------------|
A|--------3---32--|etc...-----------|----------------|----------------|
E|5--03-5-------3-|----------------|----------------|----------------|

Ouah c'etait pas facile mais je pense que c'est ca !!
Attention comme ya des triaolets j'ai galéré pour la rythmique quand ca fait 232 (hammer /pull off) lol Sinon jpense que rythmiquement tu devrais pas avoir de bleme j'ai essayé de bien respecter
Jai pas pris la pein de continuer vu que ya que ces deux riffs (les deux premieres mesures c l'intro)
Voila n'hesites pas a commenter si tu vois un souci ou quoi
0
0
#5
08/06/2007 15:22:16
merci karur! je te fais confiance, je vais essayer de jouer sa (sa m'a l'air quand meme dur pour moi) et puis voila.
Bon ben pareil pour les autres, si vous avez des remarques faites en part.
0
0
#6
08/06/2007 15:29:00
Bien stylé!
0
0
#7
08/06/2007 15:30:24
renegades
Bien stylé!
 de quoi? la musique, la ligne de basse, Karur.....?
0
0
#8
08/06/2007 15:38:12
bah toine si t'as le groove reggea c'est vraiment une ligne tout con  et efficace...
0
0
#9
08/06/2007 17:30:56
ben je doit pas avoir le groove reggae parce que j'arrive pas a me caler sur la musique...
0
0
#10
09/06/2007 20:38:42
Yeah Jah Bless you !! xD
0
0

En Live

Riep vient tout juste de rejoindre la communauté Slappyto. Bienvenue ! il y a 4 jours
Ichmul vient tout juste de rejoindre la communauté Slappyto. Bienvenue ! il y a 4 jours
Gwenbasse vient tout juste de rejoindre la communauté Slappyto. Bienvenue ! il y a 5 jours
Goldergol vient tout juste de rejoindre la communauté Slappyto. Bienvenue ! il y a 1 semaine
Omywish1 vient tout juste de rejoindre la communauté Slappyto. Bienvenue ! il y a 1 semaine
D6bel 38 vient tout juste de rejoindre la communauté Slappyto. Bienvenue ! il y a 1 semaine
Jgrec vient tout juste de rejoindre la communauté Slappyto. Bienvenue ! il y a 1 semaine
Andrewhardy et martingail ont commenté le topic [Experts in SPSS Assignment Help for Students.] de kevinmiller il y a 1 semaine