ConnexionConnexionInscription
B E A D G
147 connectés Aller à Sweepyto Guitare

Muse - Darkshines

Publié par le
30/03/2006
18459 vues
Moyen 2
Vitesse NormaleNormal speed Vitesse RalentieSlow down speed
G--------------------------------------------
D------------------------232-----2-----------
A--5-7-8---5---8--bis--------4-------4--bis--
E--------5---------------------5-------------

G--------------------------------------------
D--5-------5--------3-------3----------------
A----5---------5------5---------5------------
E------6-3--------------6-3------------------

G--------------------------------------------|
-------7-------7-----------------------------|
A----7-------------------4-------4-----------|
E--5-----0-5---------5-7---0-5---------------|
Sauf erreur, il joue sur une cinq corde, il me semble entendre un La a l'octave en dessous. Mais j'ai retranscrit sur 4 cordes (parce que j'ai pas de 5 cordes) deja, et ensuite pour que ce soit accessible au plus grand nombre. Niveau rythmique, il y a des petites ornementations parfois, ecoutez bien le cd pour les entendre. Je ne les ai pas noté ici, parce qu'elles sont jouables de plusieurs manieres différentes. L'important etant quand meme de ne pas "couper" le con, de garder un son uniforme et plein. Donc on peut a mon sens se passer de ces ajouts rythmiques. A part ca, ben... Coupez les aigus, et groovez !!!

0 Commentaires : réagissez !

1 2 3 4 5
0 notes
Aucun commentaire !

En Live

Iscou vient tout juste de rejoindre la communauté Slappyto. Bienvenue ! il y a 29 minutes
Avamak vient tout juste de rejoindre la communauté Slappyto. Bienvenue ! il y a 1 jour
Fissur79 vient tout juste de rejoindre la communauté Slappyto. Bienvenue ! il y a 2 jours
Franchement, Wario, grobass, bassman59 et Angel ont commenté le topic [Micros.] de Franchement il y a 2 jours
Philbass02 vient tout juste de rejoindre la communauté Slappyto. Bienvenue ! il y a 5 jours
Fredbasse50 vient tout juste de rejoindre la communauté Slappyto. Bienvenue ! il y a 6 jours