ConnexionConnexionInscription
B E A D G
156 connectés Aller à Sweepyto Guitare

Red Hot Chili Peppers - Out in L.A

Publié par le
02/12/2007
25670 vues
Moyen 3
Vitesse NormaleNormal speed Vitesse RalentieSlow down speed
G--------------------------|-------------------|
D--------------------------|---------------5~--|
A-7--5----------7---5-7-5--|---------5H7-X-----|
E-------6-X-7--------------|-------------------|

G----------------------------|-----------|
D----------------------------|-----------|
A-7--5---------X-5-7-5-7-4-5-|-----------|
E-------6-X-7----------------|-1/21\1----|
Premier morceaux des Red Hot : Waou ! Quelle énergie (surtout les versions concert). Ca groove du feu de Dieu donc il faut bourriner vos cordes :o) héhé

0 Commentaires : réagissez !

1 2 3 4 5
2 notes
Notes pour Out in L.A - Red Hot Chili Peppers - Cours de basse vidéo | Slappyto : 5/5 sur 2 notes
Aucun commentaire !

En Live

Remitobass vient tout juste de rejoindre la communauté Slappyto. Bienvenue ! il y a 10 heures
Papihendrix vient tout juste de rejoindre la communauté Slappyto. Bienvenue ! il y a 3 jours
Services vient tout juste de rejoindre la communauté Slappyto. Bienvenue ! il y a 1 semaine
Haga187 vient tout juste de rejoindre la communauté Slappyto. Bienvenue ! il y a 1 semaine
Aline vient tout juste de rejoindre la communauté Slappyto. Bienvenue ! il y a 1 semaine
Spa53 vient tout juste de rejoindre la communauté Slappyto. Bienvenue ! il y a 3 semaines