ConnexionConnexionInscription
B E A D G
145 connectés Aller à Sweepyto Guitare

Muse - Hyper Music

Publié par le
30/03/2006
23312 vues
Moyen 2
Vitesse NormaleNormal speed Vitesse RalentieSlow down speed
Motif 1 :
G----7---------5-7-----7----4-5-4----|
D-----------5----------------------7-|
A-5----5-8-----------5----5----------|
E------------------------------------|


Motif 2:
G--------------------------------------|
D------------------x7-7-x9-x10-10-x12--|
A--5-5-x7-x8-8-x10---------------------|
E--------------------------------------|

G---------------------------------------------|
D-------------------------------x7-x8-8-------|
A--x10-10-x10-x10-10-x10-x10-10---------x3--x-|
E---------------------------------------------|
Le motif 2 est un poil dur a tenir rythmiquement, faut bien rentrer dans le truc. N'hésitez pas à le travaller lentement au debut.

0 Commentaires : réagissez !

1 2 3 4 5
3 notes
Notes pour Hyper Music - Muse - Cours de basse vidéo | Slappyto : 3/5 sur 3 notes
Aucun commentaire !

En Live

Mushaloni a commenté le topic [Besoin d'un bricoleur !] de Mushaloni il y a 3 heures
Manyak et Wario ont commenté le topic [Photos de vos basses] de lucas il y a 1 jour