ConnexionConnexionInscription
B E A D G
135 connectés Aller à Sweepyto Guitare

Muse - New Born

Publié par le
30/03/2006
46812 vues
Moyen 4
Vitesse NormaleNormal speed Vitesse RalentieSlow down speed
Intro/couplet :
G----9--------9-----------------------------------------|
D------7ho9-----7ho9--(etc...)--------------------------|
A--7--------7-------------------------------------------|
E-------------------------------------------------------|

G----5--------4--------8--------8-----------------------|
D------4ho5-----4ho5-----5ho9-----7ho9------------------|
A--3--------2--------6--------6-------------------------|
E-------------------------------------------------------|


Passage bourrin :
G-------------------------------------------------------|
D---------------------------------10----10-11-----------|
A--7-7-7-7-10-7-10-11-12-12-12-12----12-----------------|
E-------------------------------------------------------|

G-------------------------------------------------------|
D-12----------------------------------------------------|
A-------------8----8-9-10-10-10-10----------------------|
E----10-10-10---10-----------------7-7-7-7--------------|

G---------------------------------|
D---------------------------------|
A---------------------------------|
E-8-8-8-8-8-8-8-8-6-6-6-6-6-6-6-6-|

G---------------------------------|
D---------------------------------|
A---------------------------------|
E-7-7-7-7-7-7-7-7-7-7-7-7-7-7-7-7-|
Bon... du boulot, là... Ca paye pas de mine, mais le couplet est super chaud a tenir sur tout le morceau. Le hammering on notamment... On a vite fait de chopper une crampe, la dessus, et à se cripser, et le son s'en ressent. A bosser lentement pour bien prendre le geste avant d'accelerer. Pour le passage bourrin, lachez vous. Perso, j'ai tendance a ecraser la gratte, a ce moment, tellement je bourrine. Pour soulager la tension du motif précédent... Et aussi parce que si on y croit pas, ca passe pas... Il faut convaincre, et pour ca, y croire est obligatoire !!

1 Commentaire

1 2 3 4 5
4 notes
Notes pour New Born - Muse - Cours de basse vidéo | Slappyto : 4/5 sur 4 notes
#1
20/05/2012 17:45:47
petite rectification : une petite erreur s'est glissée à la deuxième ligne, le troisième hammer est 7ho9 et non pas 5ho9
0
0

En Live

Yaip et Jaybignoise ont commenté le topic [[Vends] Ashdown Mag 300 EVO II + Cab 410T + Cab 11...] de Jaybignoise il y a 13 heures
Grattos95 et nadine ont commenté le topic [Super Alim pour pedalboard ] de ilanonbass il y a 16 heures
Chico vient tout juste de rejoindre la communauté Slappyto. Bienvenue ! il y a 1 jour
Philippe59 a accepté le message de koches il y a 2 jours
Farrone vient tout juste de rejoindre la communauté Slappyto. Bienvenue ! il y a 3 jours
Wario et nadine ont commenté le topic [[Topic COVERS], à vos basses!!!:)] de JAYSEE99 il y a 3 jours
Wario a voté pour le message de nadine il y a 3 jours
Nadine a commenté la news de DBMAN il y a 4 jours
Nadine a commenté le dossier de Poppy il y a 4 jours