ConnexionConnexionInscription
B E A D G
198 connectés Aller à Sweepyto Guitare

Rancid - Roots radicals (pont)

Publié par le
31/03/2006
18069 vues
Moyen 3
Vitesse NormaleNormal speed Vitesse RalentieSlow down speed
G-------------------------------------------------------|
D--3-3-1-1-0-0------------------------------------------|
A--------------3-3-1-1-0-0------------------------------|
E--------------------------3-3-1-1----------------------|
^ v ^ v ^ v ^ v ^ v ^ v ^ v ^ v


G----------0-0-2-0-5-5-3-3-2-2-0-0----------------------|
D------2-2----------------------------------------------|
A--3-3--------------------------------------------------|
E-------------------------------------------------------|
^ v ^ v ^ v ^ v ^ v ^ v ^ v ^ v


le tout 3 fois, puis pour finir:

G-------------------------------------------------------|
D-------------------------------------------------------|
A-----------------------0-0-1-1-2-2-3-------------------|
E--3----3-3-3-3-3-3-3-3---------------------------------|
^ ^ v ^ v ^ v ^ v ^ v ^ v ^ v ^
Alors voilà le pont du morceau, un super bon entrainement pour le jeu en aller retour! Ici, c'est simple, les allers-retours sont synchronisés avec votre main gauche. Regardez la partition, pour chaque note, votre médiator vient frapper la corde un coup dans un sens, un coup dans l'autre. Après il reste plus qu'à s'entrainer pour que ça devienne fluide :)

1 Commentaire

1 2 3 4 5
0 notes
#1
21/03/2013 16:41:22
0
0

En Live

Kyhr et Cell ont commenté le topic [La mort de Slappyto?] de kurt il y a 3 jours
Kyhr, Cell et Malicia ont commenté le topic [Le Topic du Freepost 7] de Vikie il y a 2 semaines
Cell et Poppy ont voté pour le message de Poppyto il y a 1 mois
Cell a voté pour le message de MasterFailure il y a 1 mois
Cell a voté pour le message de grobass il y a 1 mois
Cell a commenté le topic [une chope s'il vous plait !] de Adrien21 il y a 1 mois