ConnexionConnexionInscription
B E A D G
119 connectés Aller à Sweepyto Guitare

Muse - Hysteria

Publié par le
30/03/2006
63906 vues
Moyen 4
Vitesse NormaleNormal speed Vitesse RalentieSlow down speed
G-------------------------------------|
D-------------------------------------|
A-0-0-10-0-10-12-0-10-0-7-0-8-8-7-5-7-|
E-------------------------------------|

G-------------------------------------------|
D-------------------------------------------|
A------------------10--------10-10----10-12-|
E-0-0-10-0-10-12-0----0-12-0-------12-------|

G--------------------------------------|
D-0-0-10-0-10-12-0-10-0-10-9-0-9-8-0-8-|
A--------------------------------------|
E--------------------------------------|

G-------------------------------------|
D-7-----------------------------------|
A---0-10-0-10-12-0-10-0-7-0-8-8-7-5-7-|
E-------------------------------------|
Eheh... Un plan pas mythique, mais pas loin. Excellent a bosser, super plaisant a jouer, mais TRES dur a mettre en place. Prenez ca TRES TRES lentement sur un metronome, en accelerant PROGRESSIVEMENT. J'ai eu une surprise en jouant ca avec mon groupe... Oui, je la maitrisais, seul, mais avec une batterie... ca a été la cata. Donc ne négligez pas le travail de cette ligne au metronome, elle est dure a caler sur les temps, malgré le debit régulier !!!! C'est du au point de repos de la ligne, qui ne sont pas coïncidant avec les temps.

3 Commentaires

1 2 3 4 5
7 notes
Notes pour Hysteria - Muse - Cours de basse vidéo | Slappyto : 4/5 sur 7 notes
#3
09/02/2013 11:42:48
Merci pour ce cours, je suis niveau moyen 1 normalement mais je commence avec de l'entrainement à faire cette chanson bien sûr pas aussi rapidement que voulu mais quand même :)
0
0
#2
04/07/2011 19:01:41

Parcontre la video c'est pas top.

 

0
0
#1
12/06/2011 12:29:40

trés dur a bosser surtout avec ma méthodologie de travaille :/

0
0

En Live

Manyak et Wario ont commenté le topic [Photos de vos basses] de lucas il y a 18 heures