ConnexionConnexionInscription
B E A D G
138 connectés Aller à Sweepyto Guitare

Led Zeppelin - Moby Dick

Publié par le
31/03/2006
25565 vues
Moyen 1
Vitesse NormaleNormal speed Vitesse RalentieSlow down speed
G--------7--7P5--------------------| 
D----------------7--3--5--3--5--3--| 4x
A----5-----------------------------|
E----------------------------------|

G----------------------------------|
D--------5--5P3--------------------| 2x
A----------------5--1--3--1--3--1--|
E----3-----------------------------|

G--------7--7P5--------------------|
D----------------7--3--5--3--5--3--| 2x
A----5-----------------------------|
E----------------------------------|

G------------------------------------------7-5----------|
D--7---7P5-----7-7---5--7--3H5-5-5-5-5-3-------7-5--3---|
A-----------7------7---------------------5--------------|
E----5--------------------------------------------------|
Moby Dick, c'est avant tout le solo de batterie de John Bonham... Mais la ligne de basse est interressante... Attention a l'enchainement La / Fa qui consiste a un rapide déplacement de la main gauche. Un conseil : jouez le La avec l'auriculaire, pour arriver sur le Fa avec l'index... C'est toujours ca de gagné :oD A la fin si vous n'arrivez pas a enchainer comme il faut enntre le Ré grave et le Ré aigu, rien ne vous empeche de caser un petit slide partant du Do aigu pour arriver sur le Ré aigu... ;o) Bien sur une fois que ca passe vous l'enlevez !!! Et puis quoi encore !!! :oP

Moby Dick Moby Dick is mostly John Bonhams drum solo. But the bass lines interesting too. Mind the linking A / F : thats a quick move of the left hand. Tip : play the A with your ring finger, so as to reach the F with your forefinger. Itll save you cramp ! =) By the end, if you cannot link the low D and the high D properly, you can still give a short slide from the high C to the high D ! =) But once youre good enough, dont do it anymore....lazy bassist ! ;)

1 Commentaire

1 2 3 4 5
1 note
Notes pour Moby Dick - Led Zeppelin - Cours de basse vidéo | Slappyto : 5/5 sur 1 note
#1
02/06/2011 17:03:01

Votre site est très bien, mais si vous le permettez une petite critique, la notation sur la portée, je n'y comprend rien. Il serez plus simple  une tablature avec des notes normales et en dessous le numéro de la case et de la corde.

Merci d' avance. G|----------------|----------------|----------------|----------------|
D|----------------|----------------|----------------|----------------|
A|----------------|----------------|----------------|----------------|
E|----------------|----------------|----------------|----------------|
 

0
0

En Live

Ray a commenté le topic [Dégazage divers effets ] de Ray il y a 1 jour
Wario a commenté le topic [impédance sur orange terror basse] de bud01000 il y a 2 jours
Nofretnostress et pat ont commenté le topic [Avoir un son de Basse Piccolo ] de gegebassecover il y a 3 jours
Pat et Mushaloni ont commenté le topic [Besoin d'un bricoleur !] de Mushaloni il y a 3 jours
Wario a commenté le topic [darkglass head et leurs cabs] de skydrover il y a 4 jours
Hapexia a commenté le topic [Dégazage divers effets ] de Ray il y a 4 jours
Manoutcho vient tout juste de rejoindre la communauté Slappyto. Bienvenue ! il y a 5 jours
Gwoken94 vient tout juste de rejoindre la communauté Slappyto. Bienvenue ! il y a 1 semaine
Theodorus vient tout juste de rejoindre la communauté Slappyto. Bienvenue ! il y a 1 semaine