ConnexionConnexionInscription
B E A D G
136 connectés Aller à Sweepyto Guitare

Led Zeppelin - Heartbreaker

Publié par le
31/03/2006
24778 vues
Moyen 1
Vitesse NormaleNormal speed Vitesse RalentieSlow down speed
G-------------------------------------------------------|
D------0-1-2-------------0-1-2-------0-1-2--------------|
A--0-3---------0-0-0-0-3---------0-3--------------------|
E------------3-----------------3-----------3------------|

G-------------------------------------------------------|
D------------0-1-2-----0-2-3-4-----------0-2-3-4--------|
A--0-0-0-0-3---------2---------0-2-2-2-2---------0H2----|
E------------------3------------------------------------|

G-------------------------------------------------------|
D------0-1-2-------------0-1-2--------------------------|
A--0-3---------0-0-0-0-3--------------------------------|
E------------3-----------------3------------------------|
Heartbreaker... Un mythe ;) Pas de très grande difficultés, le tout est de ne pas ralentir, et ne pas oublier le groove... Bien sur, ne pas oublier le hammer, et tant qu'a faire, rajouter un leger vibrato sur le Si. Attention a l'enchainement entre le Mi et le Sol, bien étouffer la corde de Ré pour qu'elle s'arrete de sonner...

Heartbreaker is a myth ! No big trouble here, just dont slow down, and MIND THE GROOVE ! =) Dont forget the hammer and you can add a slight vibrato on the B. Watch your linking between the E and the G ; muffle the D string well, to get it to stop sounding.

0 Commentaires : réagissez !

1 2 3 4 5
1 note
Notes pour Heartbreaker - Led Zeppelin - Cours de basse vidéo | Slappyto : 5/5 sur 1 note
Aucun commentaire !

En Live

Flea888 vient tout juste de rejoindre la communauté Slappyto. Bienvenue ! il y a 11 heures
Skydrover a commenté le topic [30 W tout lampes, suffisant ?] de skydrover il y a 11 heures
Golmout80 vient tout juste de rejoindre la communauté Slappyto. Bienvenue ! il y a 22 heures
Skydrover a commenté le topic [30 W tout lampes, suffisant ?] de skydrover il y a 23 heures