ConnexionConnexionInscription
B E A D G
187 connectés Aller à Sweepyto Guitare

Led Zeppelin - Black Dog

Publié par le
31/03/2006
40644 vues
Moyen 1
Vitesse NormaleNormal speed Vitesse RalentieSlow down speed
G------------5---7H9-5H7P5-----5------------------------|
D----5-6-7-----7-----------7-7---7--5H7-7---------------|
A--7-------7------------------------------5H7-3H5--0--0-|
E-------------------------------------------------------|

G-------------------------------------------------------|
D------------5-------------5-------------5--------------|
A----5-6-7-----7---5-6-7-----7---5-6-7-----7------------|
E--7-------7-----7-------7-----7-------7----------------|

G---------------------5---7H9-5H7P5---5-----------------|
D-------------5-6-7-----7----------7-7-7-5H7-7----------|
A---5-6-7-5-7-------7-------------------------5H7-3H5-0-|
E-7-----------------------------------------------------|
Pour le dernier plan : Black Dog...Pour respecter la chanson, il faut répeter la 1ère ligne 3 fois mais je crains que la vidéo ne soit trop longue a télécharger... Alors je ne le ferai qu'une fois... Assez technique, celui la est, je crois, le plus dur de ceux que j'ai presenté... Un peu de patience, ... ;o) La grande difficulté est le déplacement rapide de la main gauche entre les 2 premiers Hammer, et les deux derniers... C'est le même geste, donc faut le travailler... JPJ le joue sur une fretless, donc si vous avez, ...

Last plan : Black Dog. To play according to the song, the first line should be repeated thrice, but the video would be too long to download... Then Ill only do it once. It is quite technical...certainly the hardest plan Ive presented to you. Be patient ! =) The hardest thing is the quick move of the left hand between the two first Hammers and the two last. Its the same move so you gotta work on it. JPJ plays it on a fretless bass...so, if you got one.... ;)

1 Commentaire

1 2 3 4 5
3 notes
Notes pour Black Dog - Led Zeppelin - Cours de basse vidéo | Slappyto : 4/5 sur 3 notes
#1
02/09/2011 13:41:27
pas facile de s'y retrouver :\
0
0

En Live

Kyhr et Cell ont commenté le topic [La mort de Slappyto?] de kurt il y a 2 jours
Kyhr, Cell et Malicia ont commenté le topic [Le Topic du Freepost 7] de Vikie il y a 2 semaines
Cell et Poppy ont voté pour le message de Poppyto il y a 1 mois
Cell a voté pour le message de MasterFailure il y a 1 mois
Cell a voté pour le message de grobass il y a 1 mois
Cell a commenté le topic [une chope s'il vous plait !] de Adrien21 il y a 1 mois